ISO-10303-21;
HEADER;
FILE_DESCRIPTION(('STEP AP214'),'1');
FILE_NAME('BB Retainer V0.3.stp','2025-12-02T20:20:52',(' '),(' '),'Spatial InterOp 3D',' ',' ');
FILE_SCHEMA(('AUTOMOTIVE_DESIGN { 1 0 10303 214 1 1 1 1 }'));
ENDSEC;
DATA;
#1=MECHANICAL_DESIGN_GEOMETRIC_PRESENTATION_REPRESENTATION(' ',(#16,#17,#18,#19,#20,#21,#22,#23,#24,#25,#26,#27,#28,#29,#30),#6);
#2=PRODUCT_DEFINITION_CONTEXT('',#31,'design');
#3=APPLICATION_PROTOCOL_DEFINITION('INTERNATIONAL STANDARD','automotive_design',1994,#31);
#4=PRODUCT_CATEGORY_RELATIONSHIP('NONE','NONE',#32,#33);
#5=SHAPE_DEFINITION_REPRESENTATION(#34,#35);
#6= (GEOMETRIC_REPRESENTATION_CONTEXT(3)GLOBAL_UNCERTAINTY_ASSIGNED_CONTEXT((#38))GLOBAL_UNIT_ASSIGNED_CONTEXT((#40,#41,#42))REPRESENTATION_CONTEXT('NONE','WORKSPACE'));
#7=PROPERTY_DEFINITION_REPRESENTATION(#44,#45);
#8=GENERAL_PROPERTY_ASSOCIATION('','',#46,#44);
#9=PROPERTY_DEFINITION_REPRESENTATION(#47,#48);
#10=GENERAL_PROPERTY_ASSOCIATION('','',#49,#47);
#11=PROPERTY_DEFINITION_REPRESENTATION(#50,#51);
#12=GENERAL_PROPERTY_ASSOCIATION('','',#52,#50);
#16=STYLED_ITEM('',(#53),#54);
#17=STYLED_ITEM('',(#55),#56);
#18=STYLED_ITEM('',(#57),#58);
#19=STYLED_ITEM('',(#59),#60);
#20=STYLED_ITEM('',(#61),#62);
#21=STYLED_ITEM('',(#63),#64);
#22=STYLED_ITEM('',(#65),#66);
#23=STYLED_ITEM('',(#67),#68);
#24=STYLED_ITEM('',(#69),#70);
#25=STYLED_ITEM('',(#71),#72);
#26=STYLED_ITEM('',(#73),#74);
#27=STYLED_ITEM('',(#75),#76);
#28=STYLED_ITEM('',(#77),#78);
#29=STYLED_ITEM('',(#79),#80);
#30=STYLED_ITEM('',(#81),#82);
#31=APPLICATION_CONTEXT(' ');
#32=PRODUCT_CATEGORY('part','NONE');
#33=PRODUCT_RELATED_PRODUCT_CATEGORY('detail',' ',(#83));
#34=PRODUCT_DEFINITION_SHAPE('NONE','NONE',#84);
#35=ADVANCED_BREP_SHAPE_REPRESENTATION('BB Retainer V0.3',(#82,#85),#6);
#38=UNCERTAINTY_MEASURE_WITH_UNIT(LENGTH_MEASURE(0.001),#40,'','');
#40= (CONVERSION_BASED_UNIT('MILLIMETRE',#88)LENGTH_UNIT()NAMED_UNIT(#91));
#41= (NAMED_UNIT(#93)PLANE_ANGLE_UNIT()SI_UNIT($,.RADIAN.));
#42= (NAMED_UNIT(#93)SOLID_ANGLE_UNIT()SI_UNIT($,.STERADIAN.));
#44=PROPERTY_DEFINITION('PdmObjectId','',#84);
#45=REPRESENTATION('',(#99),#6);
#46=GENERAL_PROPERTY('','19_336c0824-e7e6-4501-9ce3-91495b0228c8&2_12_0_4','');
#47=PROPERTY_DEFINITION('CreationDate','',#84);
#48=REPRESENTATION('',(#100),#6);
#49=GENERAL_PROPERTY('','02.12.2025 20:19:44','');
#50=PROPERTY_DEFINITION('Minor Revision','',#84);
#51=REPRESENTATION('',(#101),#6);
#52=GENERAL_PROPERTY('','1','');
#53=PRESENTATION_STYLE_ASSIGNMENT((#102));
#54=ADVANCED_FACE('',(#103),#104,.T.);
#55=PRESENTATION_STYLE_ASSIGNMENT((#105));
#56=ADVANCED_FACE('',(#106),#107,.T.);
#57=PRESENTATION_STYLE_ASSIGNMENT((#108));
#58=ADVANCED_FACE('',(#109),#110,.T.);
#59=PRESENTATION_STYLE_ASSIGNMENT((#111));
#60=ADVANCED_FACE('',(#112),#113,.T.);
#61=PRESENTATION_STYLE_ASSIGNMENT((#114));
#62=ADVANCED_FACE('',(#115),#116,.T.);
#63=PRESENTATION_STYLE_ASSIGNMENT((#117));
#64=ADVANCED_FACE('',(#118),#119,.T.);
#65=PRESENTATION_STYLE_ASSIGNMENT((#120));
#66=ADVANCED_FACE('',(#121),#122,.T.);
#67=PRESENTATION_STYLE_ASSIGNMENT((#123));
#68=ADVANCED_FACE('',(#124),#125,.T.);
#69=PRESENTATION_STYLE_ASSIGNMENT((#126));
#70=ADVANCED_FACE('',(#127,#128),#129,.T.);
#71=PRESENTATION_STYLE_ASSIGNMENT((#130));
#72=ADVANCED_FACE('',(#131),#132,.T.);
#73=PRESENTATION_STYLE_ASSIGNMENT((#133));
#74=ADVANCED_FACE('',(#134),#135,.T.);
#75=PRESENTATION_STYLE_ASSIGNMENT((#136));
#76=ADVANCED_FACE('',(#137),#138,.F.);
#77=PRESENTATION_STYLE_ASSIGNMENT((#139));
#78=ADVANCED_FACE('',(#140,#141),#142,.T.);
#79=PRESENTATION_STYLE_ASSIGNMENT((#143));
#80=ADVANCED_FACE('',(#144),#145,.T.);
#81=PRESENTATION_STYLE_ASSIGNMENT((#146));
#82=MANIFOLD_SOLID_BREP('BB Retainer V0.3',#147);
#83=PRODUCT('BB Retainer V0.3','','PART--DESC',(#148));
#84=PRODUCT_DEFINITION('','NONE',#149,#2);
#85=AXIS2_PLACEMENT_3D('',#150,#151,#152);
#88=LENGTH_MEASURE_WITH_UNIT(LENGTH_MEASURE(1.0),#153);
#91=DIMENSIONAL_EXPONENTS(1.0,0.0,0.0,0.0,0.0,0.0,0.0);
#93=DIMENSIONAL_EXPONENTS(0.0,0.0,0.0,0.0,0.0,0.0,0.0);
#99=DESCRIPTIVE_REPRESENTATION_ITEM('','19_336c0824-e7e6-4501-9ce3-91495b0228c8&2_12_0_4');
#100=DESCRIPTIVE_REPRESENTATION_ITEM('','02.12.2025 20:19:44');
#101=DESCRIPTIVE_REPRESENTATION_ITEM('','1');
#102=SURFACE_STYLE_USAGE(.BOTH.,#154);
#103=FACE_OUTER_BOUND('',#155,.T.);
#104=PLANE('',#156);
#105=SURFACE_STYLE_USAGE(.BOTH.,#157);
#106=FACE_OUTER_BOUND('',#158,.T.);
#107=PLANE('',#159);
#108=SURFACE_STYLE_USAGE(.BOTH.,#160);
#109=FACE_OUTER_BOUND('',#161,.T.);
#110=PLANE('',#162);
#111=SURFACE_STYLE_USAGE(.BOTH.,#163);
#112=FACE_OUTER_BOUND('',#164,.T.);
#113=PLANE('',#165);
#114=SURFACE_STYLE_USAGE(.BOTH.,#166);
#115=FACE_OUTER_BOUND('',#167,.T.);
#116=PLANE('',#168);
#117=SURFACE_STYLE_USAGE(.BOTH.,#169);
#118=FACE_OUTER_BOUND('',#170,.T.);
#119=PLANE('',#171);
#120=SURFACE_STYLE_USAGE(.BOTH.,#172);
#121=FACE_OUTER_BOUND('',#173,.T.);
#122=PLANE('',#174);
#123=SURFACE_STYLE_USAGE(.BOTH.,#175);
#124=FACE_OUTER_BOUND('',#176,.T.);
#125=PLANE('',#177);
#126=SURFACE_STYLE_USAGE(.BOTH.,#178);
#127=FACE_BOUND('',#179,.T.);
#128=FACE_OUTER_BOUND('',#180,.T.);
#129=PLANE('',#181);
#130=SURFACE_STYLE_USAGE(.BOTH.,#182);
#131=FACE_OUTER_BOUND('',#183,.T.);
#132=PLANE('',#184);
#133=SURFACE_STYLE_USAGE(.BOTH.,#185);
#134=FACE_OUTER_BOUND('',#186,.T.);
#135=PLANE('',#187);
#136=SURFACE_STYLE_USAGE(.BOTH.,#188);
#137=FACE_OUTER_BOUND('',#189,.T.);
#138=PLANE('',#190);
#139=SURFACE_STYLE_USAGE(.BOTH.,#191);
#140=FACE_OUTER_BOUND('',#192,.T.);
#141=FACE_OUTER_BOUND('',#193,.T.);
#142=CYLINDRICAL_SURFACE('',#194,1.325);
#143=SURFACE_STYLE_USAGE(.BOTH.,#195);
#144=FACE_OUTER_BOUND('',#196,.T.);
#145=PLANE('',#197);
#146=SURFACE_STYLE_USAGE(.BOTH.,#198);
#147=CLOSED_SHELL('',(#54,#56,#58,#60,#62,#64,#66,#68,#70,#72,#74,#76,#78,#80));
#148=PRODUCT_CONTEXT('',#31,'mechanical');
#149=PRODUCT_DEFINITION_FORMATION_WITH_SPECIFIED_SOURCE('A','NONE',#83,.NOT_KNOWN.);
#150=CARTESIAN_POINT('',(0.0,0.0,0.0));
#151=DIRECTION('',(0.0,0.0,1.0));
#152=DIRECTION('',(1.0,0.0,0.0));
#153= (NAMED_UNIT(#91)LENGTH_UNIT()SI_UNIT(.MILLI.,.METRE.));
#154=SURFACE_SIDE_STYLE('',(#200));
#155=EDGE_LOOP('',(#201,#202,#203,#204));
#156=AXIS2_PLACEMENT_3D('',#205,#206,#207);
#157=SURFACE_SIDE_STYLE('',(#208));
#158=EDGE_LOOP('',(#209,#210,#211,#212));
#159=AXIS2_PLACEMENT_3D('',#213,#214,#215);
#160=SURFACE_SIDE_STYLE('',(#216));
#161=EDGE_LOOP('',(#217,#218,#219,#220));
#162=AXIS2_PLACEMENT_3D('',#221,#222,#223);
#163=SURFACE_SIDE_STYLE('',(#224));
#164=EDGE_LOOP('',(#225,#226,#227,#228));
#165=AXIS2_PLACEMENT_3D('',#229,#230,#231);
#166=SURFACE_SIDE_STYLE('',(#232));
#167=EDGE_LOOP('',(#233,#234,#235,#236));
#168=AXIS2_PLACEMENT_3D('',#237,#238,#239);
#169=SURFACE_SIDE_STYLE('',(#240));
#170=EDGE_LOOP('',(#241,#242,#243,#244));
#171=AXIS2_PLACEMENT_3D('',#245,#246,#247);
#172=SURFACE_SIDE_STYLE('',(#248));
#173=EDGE_LOOP('',(#249,#250,#251,#252));
#174=AXIS2_PLACEMENT_3D('',#253,#254,#255);
#175=SURFACE_SIDE_STYLE('',(#256));
#176=EDGE_LOOP('',(#257,#258,#259,#260));
#177=AXIS2_PLACEMENT_3D('',#261,#262,#263);
#178=SURFACE_SIDE_STYLE('',(#264));
#179=EDGE_LOOP('',(#265));
#180=EDGE_LOOP('',(#266,#267,#268,#269));
#181=AXIS2_PLACEMENT_3D('',#270,#271,#272);
#182=SURFACE_SIDE_STYLE('',(#273));
#183=EDGE_LOOP('',(#274,#275,#276,#277));
#184=AXIS2_PLACEMENT_3D('',#278,#279,#280);
#185=SURFACE_SIDE_STYLE('',(#281));
#186=EDGE_LOOP('',(#282,#283,#284,#285,#286,#287,#288,#289,#290,#291));
#187=AXIS2_PLACEMENT_3D('',#292,#293,#294);
#188=SURFACE_SIDE_STYLE('',(#295));
#189=EDGE_LOOP('',(#296,#297,#298,#299,#300,#301,#302,#303,#304,#305));
#190=AXIS2_PLACEMENT_3D('',#306,#307,#308);
#191=SURFACE_SIDE_STYLE('',(#309));
#192=EDGE_LOOP('',(#310));
#193=EDGE_LOOP('',(#311));
#194=AXIS2_PLACEMENT_3D('',#312,#313,#314);
#195=SURFACE_SIDE_STYLE('',(#315));
#196=EDGE_LOOP('',(#316));
#197=AXIS2_PLACEMENT_3D('',#317,#318,#319);
#198=SURFACE_SIDE_STYLE('',(#320));
#200=SURFACE_STYLE_FILL_AREA(#321);
#201=ORIENTED_EDGE('',*,*,#322,.F.);
#202=ORIENTED_EDGE('',*,*,#323,.F.);
#203=ORIENTED_EDGE('',*,*,#324,.T.);
#204=ORIENTED_EDGE('',*,*,#325,.T.);
#205=CARTESIAN_POINT('',(3.05,-1.05,0.0));
#206=DIRECTION('',(-1.0,-6.12303176911189E-17,0.0));
#207=DIRECTION('',(6.12303176911189E-17,-1.0,0.0));
#208=SURFACE_STYLE_FILL_AREA(#326);
#209=ORIENTED_EDGE('',*,*,#327,.F.);
#210=ORIENTED_EDGE('',*,*,#325,.F.);
#211=ORIENTED_EDGE('',*,*,#328,.T.);
#212=ORIENTED_EDGE('',*,*,#329,.T.);
#213=CARTESIAN_POINT('',(4.1,-2.1,0.0));
#214=DIRECTION('',(0.0,-1.0,0.0));
#215=DIRECTION('',(1.0,0.0,0.0));
#216=SURFACE_STYLE_FILL_AREA(#330);
#217=ORIENTED_EDGE('',*,*,#331,.F.);
#218=ORIENTED_EDGE('',*,*,#329,.F.);
#219=ORIENTED_EDGE('',*,*,#332,.T.);
#220=ORIENTED_EDGE('',*,*,#333,.T.);
#221=CARTESIAN_POINT('',(5.15,-1.05,0.0));
#222=DIRECTION('',(1.0,-6.12303176911189E-17,0.0));
#223=DIRECTION('',(6.12303176911189E-17,1.0,0.0));
#224=SURFACE_STYLE_FILL_AREA(#334);
#225=ORIENTED_EDGE('',*,*,#335,.F.);
#226=ORIENTED_EDGE('',*,*,#333,.F.);
#227=ORIENTED_EDGE('',*,*,#336,.T.);
#228=ORIENTED_EDGE('',*,*,#337,.T.);
#229=CARTESIAN_POINT('',(8.275,0.0,0.0));
#230=DIRECTION('',(-1.22460635382238E-16,-1.0,0.0));
#231=DIRECTION('',(1.0,-1.22460635382238E-16,0.0));
#232=SURFACE_STYLE_FILL_AREA(#338);
#233=ORIENTED_EDGE('',*,*,#339,.F.);
#234=ORIENTED_EDGE('',*,*,#337,.F.);
#235=ORIENTED_EDGE('',*,*,#340,.T.);
#236=ORIENTED_EDGE('',*,*,#341,.T.);
#237=CARTESIAN_POINT('',(10.0,1.84,0.0));
#238=DIRECTION('',(0.795828694120859,0.605521832483263,0.0));
#239=DIRECTION('',(-0.605521832483263,0.795828694120859,0.0));
#240=SURFACE_STYLE_FILL_AREA(#342);
#241=ORIENTED_EDGE('',*,*,#343,.F.);
#242=ORIENTED_EDGE('',*,*,#341,.F.);
#243=ORIENTED_EDGE('',*,*,#344,.T.);
#244=ORIENTED_EDGE('',*,*,#345,.T.);
#245=CARTESIAN_POINT('',(5.85,3.68,0.0));
#246=DIRECTION('',(0.0,1.0,0.0));
#247=DIRECTION('',(-1.0,0.0,0.0));
#248=SURFACE_STYLE_FILL_AREA(#346);
#249=ORIENTED_EDGE('',*,*,#347,.F.);
#250=ORIENTED_EDGE('',*,*,#345,.F.);
#251=ORIENTED_EDGE('',*,*,#348,.T.);
#252=ORIENTED_EDGE('',*,*,#349,.T.);
#253=CARTESIAN_POINT('',(3.1,4.33,0.0));
#254=DIRECTION('',(1.0,-6.12303176911189E-17,0.0));
#255=DIRECTION('',(6.12303176911189E-17,1.0,0.0));
#256=SURFACE_STYLE_FILL_AREA(#350);
#257=ORIENTED_EDGE('',*,*,#351,.F.);
#258=ORIENTED_EDGE('',*,*,#349,.F.);
#259=ORIENTED_EDGE('',*,*,#352,.T.);
#260=ORIENTED_EDGE('',*,*,#353,.T.);
#261=CARTESIAN_POINT('',(1.55,4.98,0.0));
#262=DIRECTION('',(-1.22460635382238E-16,1.0,0.0));
#263=DIRECTION('',(-1.0,-1.22460635382238E-16,0.0));
#264=SURFACE_STYLE_FILL_AREA(#354);
#265=ORIENTED_EDGE('',*,*,#355,.F.);
#266=ORIENTED_EDGE('',*,*,#356,.F.);
#267=ORIENTED_EDGE('',*,*,#353,.F.);
#268=ORIENTED_EDGE('',*,*,#357,.T.);
#269=ORIENTED_EDGE('',*,*,#358,.T.);
#270=CARTESIAN_POINT('',(0.0,1.84,0.0));
#271=DIRECTION('',(-1.0,-6.12303176911189E-17,0.0));
#272=DIRECTION('',(6.12303176911189E-17,-1.0,0.0));
#273=SURFACE_STYLE_FILL_AREA(#359);
#274=ORIENTED_EDGE('',*,*,#360,.F.);
#275=ORIENTED_EDGE('',*,*,#358,.F.);
#276=ORIENTED_EDGE('',*,*,#361,.T.);
#277=ORIENTED_EDGE('',*,*,#323,.T.);
#278=CARTESIAN_POINT('',(1.525,0.0,0.0));
#279=DIRECTION('',(-1.22460635382238E-16,-1.0,0.0));
#280=DIRECTION('',(1.0,-1.22460635382238E-16,0.0));
#281=SURFACE_STYLE_FILL_AREA(#362);
#282=ORIENTED_EDGE('',*,*,#322,.T.);
#283=ORIENTED_EDGE('',*,*,#327,.T.);
#284=ORIENTED_EDGE('',*,*,#331,.T.);
#285=ORIENTED_EDGE('',*,*,#335,.T.);
#286=ORIENTED_EDGE('',*,*,#339,.T.);
#287=ORIENTED_EDGE('',*,*,#343,.T.);
#288=ORIENTED_EDGE('',*,*,#347,.T.);
#289=ORIENTED_EDGE('',*,*,#351,.T.);
#290=ORIENTED_EDGE('',*,*,#356,.T.);
#291=ORIENTED_EDGE('',*,*,#360,.T.);
#292=CARTESIAN_POINT('',(0.0,0.0,3.15));
#293=DIRECTION('',(0.0,0.0,1.0));
#294=DIRECTION('',(1.0,0.0,0.0));
#295=SURFACE_STYLE_FILL_AREA(#363);
#296=ORIENTED_EDGE('',*,*,#324,.F.);
#297=ORIENTED_EDGE('',*,*,#361,.F.);
#298=ORIENTED_EDGE('',*,*,#357,.F.);
#299=ORIENTED_EDGE('',*,*,#352,.F.);
#300=ORIENTED_EDGE('',*,*,#348,.F.);
#301=ORIENTED_EDGE('',*,*,#344,.F.);
#302=ORIENTED_EDGE('',*,*,#340,.F.);
#303=ORIENTED_EDGE('',*,*,#336,.F.);
#304=ORIENTED_EDGE('',*,*,#332,.F.);
#305=ORIENTED_EDGE('',*,*,#328,.F.);
#306=CARTESIAN_POINT('',(0.0,0.0,0.0));
#307=DIRECTION('',(0.0,0.0,1.0));
#308=DIRECTION('',(1.0,0.0,0.0));
#309=SURFACE_STYLE_FILL_AREA(#364);
#310=ORIENTED_EDGE('',*,*,#355,.T.);
#311=ORIENTED_EDGE('',*,*,#365,.F.);
#312=CARTESIAN_POINT('',(-1.12663784551659E-16,1.84,1.575));
#313=DIRECTION('',(-1.0,-6.12303176911189E-17,0.0));
#314=DIRECTION('',(6.12303176911189E-17,-1.0,0.0));
#315=SURFACE_STYLE_FILL_AREA(#366);
#316=ORIENTED_EDGE('',*,*,#365,.T.);
#317=CARTESIAN_POINT('',(-2.4,1.84,1.575));
#318=DIRECTION('',(-1.0,-6.12303176911189E-17,0.0));
#319=DIRECTION('',(6.12303176911189E-17,-1.0,0.0));
#320=SURFACE_STYLE_FILL_AREA(#367);
#321=FILL_AREA_STYLE('',(#368));
#322=EDGE_CURVE('',#369,#370,#371,.T.);
#323=EDGE_CURVE('',#372,#369,#373,.T.);
#324=EDGE_CURVE('',#372,#374,#375,.T.);
#325=EDGE_CURVE('',#374,#370,#376,.T.);
#326=FILL_AREA_STYLE('',(#377));
#327=EDGE_CURVE('',#370,#378,#379,.T.);
#328=EDGE_CURVE('',#374,#380,#381,.T.);
#329=EDGE_CURVE('',#380,#378,#382,.T.);
#330=FILL_AREA_STYLE('',(#383));
#331=EDGE_CURVE('',#378,#384,#385,.T.);
#332=EDGE_CURVE('',#380,#386,#387,.T.);
#333=EDGE_CURVE('',#386,#384,#388,.T.);
#334=FILL_AREA_STYLE('',(#389));
#335=EDGE_CURVE('',#384,#390,#391,.T.);
#336=EDGE_CURVE('',#386,#392,#393,.T.);
#337=EDGE_CURVE('',#392,#390,#394,.T.);
#338=FILL_AREA_STYLE('',(#395));
#339=EDGE_CURVE('',#390,#396,#397,.T.);
#340=EDGE_CURVE('',#392,#398,#399,.T.);
#341=EDGE_CURVE('',#398,#396,#400,.T.);
#342=FILL_AREA_STYLE('',(#401));
#343=EDGE_CURVE('',#396,#402,#403,.T.);
#344=EDGE_CURVE('',#398,#404,#405,.T.);
#345=EDGE_CURVE('',#404,#402,#406,.T.);
#346=FILL_AREA_STYLE('',(#407));
#347=EDGE_CURVE('',#402,#408,#409,.T.);
#348=EDGE_CURVE('',#404,#410,#411,.T.);
#349=EDGE_CURVE('',#410,#408,#412,.T.);
#350=FILL_AREA_STYLE('',(#413));
#351=EDGE_CURVE('',#408,#414,#415,.T.);
#352=EDGE_CURVE('',#410,#416,#417,.T.);
#353=EDGE_CURVE('',#416,#414,#418,.T.);
#354=FILL_AREA_STYLE('',(#419));
#355=EDGE_CURVE('',#420,#420,#421,.T.);
#356=EDGE_CURVE('',#414,#422,#423,.T.);
#357=EDGE_CURVE('',#416,#424,#425,.T.);
#358=EDGE_CURVE('',#424,#422,#426,.T.);
#359=FILL_AREA_STYLE('',(#427));
#360=EDGE_CURVE('',#422,#369,#428,.T.);
#361=EDGE_CURVE('',#424,#372,#429,.T.);
#362=FILL_AREA_STYLE('',(#430));
#363=FILL_AREA_STYLE('',(#431));
#364=FILL_AREA_STYLE('',(#432));
#365=EDGE_CURVE('',#433,#433,#434,.T.);
#366=FILL_AREA_STYLE('',(#435));
#367=FILL_AREA_STYLE('',(#436));
#368=FILL_AREA_STYLE_COLOUR('',#437);
#369=VERTEX_POINT('',#438);
#370=VERTEX_POINT('',#439);
#371=LINE('',#440,#441);
#372=VERTEX_POINT('',#442);
#373=LINE('',#443,#444);
#374=VERTEX_POINT('',#445);
#375=LINE('',#446,#447);
#376=LINE('',#448,#449);
#377=FILL_AREA_STYLE_COLOUR('',#450);
#378=VERTEX_POINT('',#451);
#379=LINE('',#452,#453);
#380=VERTEX_POINT('',#454);
#381=LINE('',#455,#456);
#382=LINE('',#457,#458);
#383=FILL_AREA_STYLE_COLOUR('',#459);
#384=VERTEX_POINT('',#460);
#385=LINE('',#461,#462);
#386=VERTEX_POINT('',#463);
#387=LINE('',#464,#465);
#388=LINE('',#466,#467);
#389=FILL_AREA_STYLE_COLOUR('',#468);
#390=VERTEX_POINT('',#469);
#391=LINE('',#470,#471);
#392=VERTEX_POINT('',#472);
#393=LINE('',#473,#474);
#394=LINE('',#475,#476);
#395=FILL_AREA_STYLE_COLOUR('',#477);
#396=VERTEX_POINT('',#478);
#397=LINE('',#479,#480);
#398=VERTEX_POINT('',#481);
#399=LINE('',#482,#483);
#400=LINE('',#484,#485);
#401=FILL_AREA_STYLE_COLOUR('',#486);
#402=VERTEX_POINT('',#487);
#403=LINE('',#488,#489);
#404=VERTEX_POINT('',#490);
#405=LINE('',#491,#492);
#406=LINE('',#493,#494);
#407=FILL_AREA_STYLE_COLOUR('',#495);
#408=VERTEX_POINT('',#496);
#409=LINE('',#497,#498);
#410=VERTEX_POINT('',#499);
#411=LINE('',#500,#501);
#412=LINE('',#502,#503);
#413=FILL_AREA_STYLE_COLOUR('',#504);
#414=VERTEX_POINT('',#505);
#415=LINE('',#506,#507);
#416=VERTEX_POINT('',#508);
#417=LINE('',#509,#510);
#418=LINE('',#511,#512);
#419=FILL_AREA_STYLE_COLOUR('',#513);
#420=VERTEX_POINT('',#514);
#421=CIRCLE('',#515,1.325);
#422=VERTEX_POINT('',#516);
#423=LINE('',#517,#518);
#424=VERTEX_POINT('',#519);
#425=LINE('',#520,#521);
#426=LINE('',#522,#523);
#427=FILL_AREA_STYLE_COLOUR('',#524);
#428=LINE('',#525,#526);
#429=LINE('',#527,#528);
#430=FILL_AREA_STYLE_COLOUR('',#529);
#431=FILL_AREA_STYLE_COLOUR('',#530);
#432=FILL_AREA_STYLE_COLOUR('',#531);
#433=VERTEX_POINT('',#532);
#434=CIRCLE('',#533,1.325);
#435=FILL_AREA_STYLE_COLOUR('',#534);
#436=FILL_AREA_STYLE_COLOUR('',#535);
#437=COLOUR_RGB('',0.752941191196442,0.752941191196442,0.752941191196442);
#438=CARTESIAN_POINT('',(3.05,-1.86752468957913E-16,3.15));
#439=CARTESIAN_POINT('',(3.05,-2.1,3.15));
#440=CARTESIAN_POINT('',(3.05,-1.05,3.15));
#441=VECTOR('',#536,1.0);
#442=CARTESIAN_POINT('',(3.05,-1.86752468957913E-16,0.0));
#443=CARTESIAN_POINT('',(3.05,-1.86752468957913E-16,0.0));
#444=VECTOR('',#537,1.0);
#445=CARTESIAN_POINT('',(3.05,-2.1,0.0));
#446=CARTESIAN_POINT('',(3.05,-1.05,0.0));
#447=VECTOR('',#538,1.0);
#448=CARTESIAN_POINT('',(3.05,-2.1,0.0));
#449=VECTOR('',#539,1.0);
#450=COLOUR_RGB('',0.752941191196442,0.752941191196442,0.752941191196442);
#451=CARTESIAN_POINT('',(5.15,-2.1,3.15));
#452=CARTESIAN_POINT('',(4.1,-2.1,3.15));
#453=VECTOR('',#540,1.0);
#454=CARTESIAN_POINT('',(5.15,-2.1,0.0));
#455=CARTESIAN_POINT('',(4.1,-2.1,0.0));
#456=VECTOR('',#541,1.0);
#457=CARTESIAN_POINT('',(5.15,-2.1,0.0));
#458=VECTOR('',#542,1.0);
#459=COLOUR_RGB('',0.752941191196442,0.752941191196442,0.752941191196442);
#460=CARTESIAN_POINT('',(5.15,3.82689485569493E-16,3.15));
#461=CARTESIAN_POINT('',(5.15,-1.05,3.15));
#462=VECTOR('',#543,1.0);
#463=CARTESIAN_POINT('',(5.15,3.82689485569493E-16,0.0));
#464=CARTESIAN_POINT('',(5.15,-1.05,0.0));
#465=VECTOR('',#544,1.0);
#466=CARTESIAN_POINT('',(5.15,3.82689485569493E-16,0.0));
#467=VECTOR('',#545,1.0);
#468=COLOUR_RGB('',0.752941191196442,0.752941191196442,0.752941191196442);
#469=CARTESIAN_POINT('',(11.4,4.33680868994202E-16,3.15));
#470=CARTESIAN_POINT('',(8.275,0.0,3.15));
#471=VECTOR('',#546,1.0);
#472=CARTESIAN_POINT('',(11.4,4.33680868994202E-16,0.0));
#473=CARTESIAN_POINT('',(8.275,0.0,0.0));
#474=VECTOR('',#547,1.0);
#475=CARTESIAN_POINT('',(11.4,4.33680868994202E-16,0.0));
#476=VECTOR('',#548,1.0);
#477=COLOUR_RGB('',0.752941191196442,0.752941191196442,0.752941191196442);
#478=CARTESIAN_POINT('',(8.6,3.68,3.15));
#479=CARTESIAN_POINT('',(10.0,1.84,3.15));
#480=VECTOR('',#549,1.0);
#481=CARTESIAN_POINT('',(8.6,3.68,0.0));
#482=CARTESIAN_POINT('',(10.0,1.84,0.0));
#483=VECTOR('',#550,1.0);
#484=CARTESIAN_POINT('',(8.6,3.68,0.0));
#485=VECTOR('',#551,1.0);
#486=COLOUR_RGB('',0.752941191196442,0.752941191196442,0.752941191196442);
#487=CARTESIAN_POINT('',(3.1,3.68,3.15));
#488=CARTESIAN_POINT('',(5.85,3.68,3.15));
#489=VECTOR('',#552,1.0);
#490=CARTESIAN_POINT('',(3.1,3.68,0.0));
#491=CARTESIAN_POINT('',(5.85,3.68,0.0));
#492=VECTOR('',#553,1.0);
#493=CARTESIAN_POINT('',(3.1,3.68,0.0));
#494=VECTOR('',#554,1.0);
#495=COLOUR_RGB('',0.752941191196442,0.752941191196442,0.752941191196442);
#496=CARTESIAN_POINT('',(3.1,4.98,3.15));
#497=CARTESIAN_POINT('',(3.1,4.33,3.15));
#498=VECTOR('',#555,1.0);
#499=CARTESIAN_POINT('',(3.1,4.98,0.0));
#500=CARTESIAN_POINT('',(3.1,4.33,0.0));
#501=VECTOR('',#556,1.0);
#502=CARTESIAN_POINT('',(3.1,4.98,0.0));
#503=VECTOR('',#557,1.0);
#504=COLOUR_RGB('',0.752941191196442,0.752941191196442,0.752941191196442);
#505=CARTESIAN_POINT('',(-3.97997064992273E-17,4.98,3.15));
#506=CARTESIAN_POINT('',(1.55,4.98,3.15));
#507=VECTOR('',#558,1.0);
#508=CARTESIAN_POINT('',(-3.97997064992273E-17,4.98,0.0));
#509=CARTESIAN_POINT('',(1.55,4.98,0.0));
#510=VECTOR('',#559,1.0);
#511=CARTESIAN_POINT('',(-3.97997064992273E-17,4.98,0.0));
#512=VECTOR('',#560,1.0);
#513=COLOUR_RGB('',0.752941191196442,0.752941191196442,0.752941191196442);
#514=CARTESIAN_POINT('',(-3.15336136109261E-17,0.515,1.575));
#515=AXIS2_PLACEMENT_3D('',#561,#562,#563);
#516=CARTESIAN_POINT('',(0.0,1.86752468957913E-16,3.15));
#517=CARTESIAN_POINT('',(0.0,1.84,3.15));
#518=VECTOR('',#564,1.0);
#519=CARTESIAN_POINT('',(0.0,1.86752468957913E-16,0.0));
#520=CARTESIAN_POINT('',(0.0,1.84,0.0));
#521=VECTOR('',#565,1.0);
#522=CARTESIAN_POINT('',(0.0,1.86752468957913E-16,0.0));
#523=VECTOR('',#566,1.0);
#524=COLOUR_RGB('',0.752941191196442,0.752941191196442,0.752941191196442);
#525=CARTESIAN_POINT('',(1.525,0.0,3.15));
#526=VECTOR('',#567,1.0);
#527=CARTESIAN_POINT('',(1.525,0.0,0.0));
#528=VECTOR('',#568,1.0);
#529=COLOUR_RGB('',0.752941191196442,0.752941191196442,0.752941191196442);
#530=COLOUR_RGB('',0.752941191196442,0.752941191196442,0.752941191196442);
#531=COLOUR_RGB('',0.752941191196442,0.752941191196442,0.752941191196442);
#532=CARTESIAN_POINT('',(-2.4,0.515,1.575));
#533=AXIS2_PLACEMENT_3D('',#569,#570,#571);
#534=COLOUR_RGB('',0.752941191196442,0.752941191196442,0.752941191196442);
#535=COLOUR_RGB('',0.752941191196442,0.752941191196442,0.752941191196442);
#536=DIRECTION('',(6.12303176911189E-17,-1.0,0.0));
#537=DIRECTION('',(0.0,0.0,1.0));
#538=DIRECTION('',(6.12303176911189E-17,-1.0,0.0));
#539=DIRECTION('',(0.0,0.0,1.0));
#540=DIRECTION('',(1.0,0.0,0.0));
#541=DIRECTION('',(1.0,0.0,0.0));
#542=DIRECTION('',(0.0,0.0,1.0));
#543=DIRECTION('',(6.12303176911189E-17,1.0,0.0));
#544=DIRECTION('',(6.12303176911189E-17,1.0,0.0));
#545=DIRECTION('',(0.0,0.0,1.0));
#546=DIRECTION('',(1.0,-1.22460635382238E-16,0.0));
#547=DIRECTION('',(1.0,-1.22460635382238E-16,0.0));
#548=DIRECTION('',(0.0,0.0,1.0));
#549=DIRECTION('',(-0.605521832483262,0.795828694120859,0.0));
#550=DIRECTION('',(-0.605521832483262,0.795828694120859,0.0));
#551=DIRECTION('',(0.0,0.0,1.0));
#552=DIRECTION('',(-1.0,0.0,0.0));
#553=DIRECTION('',(-1.0,0.0,0.0));
#554=DIRECTION('',(0.0,0.0,1.0));
#555=DIRECTION('',(6.12303176911189E-17,1.0,0.0));
#556=DIRECTION('',(6.12303176911189E-17,1.0,0.0));
#557=DIRECTION('',(0.0,0.0,1.0));
#558=DIRECTION('',(-1.0,-1.22460635382238E-16,0.0));
#559=DIRECTION('',(-1.0,-1.22460635382238E-16,0.0));
#560=DIRECTION('',(0.0,0.0,1.0));
#561=CARTESIAN_POINT('',(-1.12663784551659E-16,1.84,1.575));
#562=DIRECTION('',(-1.0,-6.12303176911189E-17,0.0));
#563=DIRECTION('',(6.12303176911189E-17,-1.0,0.0));
#564=DIRECTION('',(6.12303176911189E-17,-1.0,0.0));
#565=DIRECTION('',(6.12303176911189E-17,-1.0,0.0));
#566=DIRECTION('',(0.0,0.0,1.0));
#567=DIRECTION('',(1.0,-1.22460635382238E-16,0.0));
#568=DIRECTION('',(1.0,-1.22460635382238E-16,0.0));
#569=CARTESIAN_POINT('',(-2.4,1.84,1.575));
#570=DIRECTION('',(-1.0,-6.12303176911189E-17,0.0));
#571=DIRECTION('',(6.12303176911189E-17,-1.0,0.0));
ENDSEC;
END-ISO-10303-21;
